ISO-10303-21;
HEADER;
/* Generated by software containing ST-Developer
 * from STEP Tools, Inc. (www.steptools.com) 
 */

FILE_DESCRIPTION(
/* description */ (''),
/* implementation_level */ '2;1');

FILE_NAME(
/* name */ 
'Z:/Modular Solution/A-Profile System/Parts/61-121-0/CAD/61-121-0 v2.s
tep',
/* time_stamp */ '2020-10-15T08:31:08-04:00',
/* author */ (''),
/* organization */ (''),
/* preprocessor_version */ 'ST-DEVELOPER v18.1',
/* originating_system */ 'Autodesk Translation Framework v9.3.0.1241',
/* authorisation */ '');

FILE_SCHEMA (('AUTOMOTIVE_DESIGN { 1 0 10303 214 3 1 1 }'));
ENDSEC;

DATA;
#10=MECHANICAL_DESIGN_GEOMETRIC_PRESENTATION_REPRESENTATION('',(#13),#527);
#11=SHAPE_REPRESENTATION_RELATIONSHIP('SRR','None',#534,#12);
#12=ADVANCED_BREP_SHAPE_REPRESENTATION('',(#14),#526);
#13=STYLED_ITEM('',(#543),#14);
#14=MANIFOLD_SOLID_BREP('Body1',#303);
#15=CYLINDRICAL_SURFACE('',#325,0.300000186199989);
#16=CYLINDRICAL_SURFACE('',#328,0.749977204962563);
#17=CYLINDRICAL_SURFACE('',#331,1.80229107074405);
#18=CYLINDRICAL_SURFACE('',#334,0.999999999999981);
#19=CYLINDRICAL_SURFACE('',#337,0.441949134246213);
#20=CYLINDRICAL_SURFACE('',#340,0.74999999999999);
#21=CYLINDRICAL_SURFACE('',#343,1.4999999867);
#22=FACE_OUTER_BOUND('',#38,.T.);
#23=FACE_OUTER_BOUND('',#39,.T.);
#24=FACE_OUTER_BOUND('',#40,.T.);
#25=FACE_OUTER_BOUND('',#41,.T.);
#26=FACE_OUTER_BOUND('',#42,.T.);
#27=FACE_OUTER_BOUND('',#43,.T.);
#28=FACE_OUTER_BOUND('',#44,.T.);
#29=FACE_OUTER_BOUND('',#45,.T.);
#30=FACE_OUTER_BOUND('',#46,.T.);
#31=FACE_OUTER_BOUND('',#47,.T.);
#32=FACE_OUTER_BOUND('',#48,.T.);
#33=FACE_OUTER_BOUND('',#49,.T.);
#34=FACE_OUTER_BOUND('',#50,.T.);
#35=FACE_OUTER_BOUND('',#51,.T.);
#36=FACE_OUTER_BOUND('',#52,.T.);
#37=FACE_OUTER_BOUND('',#53,.T.);
#38=EDGE_LOOP('',(#194,#195,#196,#197,#198,#199,#200,#201,#202,#203,#204,
#205,#206,#207));
#39=EDGE_LOOP('',(#208,#209,#210,#211));
#40=EDGE_LOOP('',(#212,#213,#214,#215));
#41=EDGE_LOOP('',(#216,#217,#218,#219));
#42=EDGE_LOOP('',(#220,#221,#222,#223));
#43=EDGE_LOOP('',(#224,#225,#226,#227));
#44=EDGE_LOOP('',(#228,#229,#230,#231));
#45=EDGE_LOOP('',(#232,#233,#234,#235));
#46=EDGE_LOOP('',(#236,#237,#238,#239));
#47=EDGE_LOOP('',(#240,#241,#242,#243));
#48=EDGE_LOOP('',(#244,#245,#246,#247));
#49=EDGE_LOOP('',(#248,#249,#250,#251));
#50=EDGE_LOOP('',(#252,#253,#254,#255));
#51=EDGE_LOOP('',(#256,#257,#258,#259));
#52=EDGE_LOOP('',(#260,#261,#262,#263));
#53=EDGE_LOOP('',(#264,#265,#266,#267,#268,#269,#270,#271,#272,#273,#274,
#275,#276,#277));
#54=CIRCLE('',#318,1.4999999867);
#55=CIRCLE('',#319,0.74999999999999);
#56=CIRCLE('',#320,0.441949134246213);
#57=CIRCLE('',#321,0.999999999999981);
#58=CIRCLE('',#322,1.80229107074405);
#59=CIRCLE('',#323,0.749977204962563);
#60=CIRCLE('',#324,0.300000186199989);
#61=CIRCLE('',#326,0.300000186199989);
#62=CIRCLE('',#329,0.749977204962563);
#63=CIRCLE('',#332,1.80229107074405);
#64=CIRCLE('',#335,0.999999999999981);
#65=CIRCLE('',#338,0.441949134246213);
#66=CIRCLE('',#341,0.74999999999999);
#67=CIRCLE('',#344,1.4999999867);
#68=LINE('',#441,#96);
#69=LINE('',#445,#97);
#70=LINE('',#449,#98);
#71=LINE('',#453,#99);
#72=LINE('',#457,#100);
#73=LINE('',#461,#101);
#74=LINE('',#465,#102);
#75=LINE('',#471,#103);
#76=LINE('',#472,#104);
#77=LINE('',#475,#105);
#78=LINE('',#476,#106);
#79=LINE('',#480,#107);
#80=LINE('',#483,#108);
#81=LINE('',#484,#109);
#82=LINE('',#488,#110);
#83=LINE('',#491,#111);
#84=LINE('',#492,#112);
#85=LINE('',#496,#113);
#86=LINE('',#499,#114);
#87=LINE('',#500,#115);
#88=LINE('',#504,#116);
#89=LINE('',#507,#117);
#90=LINE('',#508,#118);
#91=LINE('',#512,#119);
#92=LINE('',#515,#120);
#93=LINE('',#516,#121);
#94=LINE('',#520,#122);
#95=LINE('',#522,#123);
#96=VECTOR('',#351,10.);
#97=VECTOR('',#354,10.);
#98=VECTOR('',#357,10.);
#99=VECTOR('',#360,10.);
#100=VECTOR('',#363,10.);
#101=VECTOR('',#366,10.);
#102=VECTOR('',#369,10.);
#103=VECTOR('',#376,10.);
#104=VECTOR('',#377,10.);
#105=VECTOR('',#380,10.);
#106=VECTOR('',#381,10.);
#107=VECTOR('',#386,10.);
#108=VECTOR('',#389,10.);
#109=VECTOR('',#390,10.);
#110=VECTOR('',#395,10.);
#111=VECTOR('',#398,10.);
#112=VECTOR('',#399,10.);
#113=VECTOR('',#404,10.);
#114=VECTOR('',#407,10.);
#115=VECTOR('',#408,10.);
#116=VECTOR('',#413,10.);
#117=VECTOR('',#416,10.);
#118=VECTOR('',#417,10.);
#119=VECTOR('',#422,10.);
#120=VECTOR('',#425,10.);
#121=VECTOR('',#426,10.);
#122=VECTOR('',#431,10.);
#123=VECTOR('',#434,10.);
#124=VERTEX_POINT('',#439);
#125=VERTEX_POINT('',#440);
#126=VERTEX_POINT('',#442);
#127=VERTEX_POINT('',#444);
#128=VERTEX_POINT('',#446);
#129=VERTEX_POINT('',#448);
#130=VERTEX_POINT('',#450);
#131=VERTEX_POINT('',#452);
#132=VERTEX_POINT('',#454);
#133=VERTEX_POINT('',#456);
#134=VERTEX_POINT('',#458);
#135=VERTEX_POINT('',#460);
#136=VERTEX_POINT('',#462);
#137=VERTEX_POINT('',#464);
#138=VERTEX_POINT('',#468);
#139=VERTEX_POINT('',#469);
#140=VERTEX_POINT('',#474);
#141=VERTEX_POINT('',#478);
#142=VERTEX_POINT('',#482);
#143=VERTEX_POINT('',#486);
#144=VERTEX_POINT('',#490);
#145=VERTEX_POINT('',#494);
#146=VERTEX_POINT('',#498);
#147=VERTEX_POINT('',#502);
#148=VERTEX_POINT('',#506);
#149=VERTEX_POINT('',#510);
#150=VERTEX_POINT('',#514);
#151=VERTEX_POINT('',#518);
#152=EDGE_CURVE('',#124,#125,#68,.T.);
#153=EDGE_CURVE('',#125,#126,#54,.T.);
#154=EDGE_CURVE('',#126,#127,#69,.T.);
#155=EDGE_CURVE('',#127,#128,#55,.T.);
#156=EDGE_CURVE('',#128,#129,#70,.T.);
#157=EDGE_CURVE('',#129,#130,#56,.T.);
#158=EDGE_CURVE('',#130,#131,#71,.T.);
#159=EDGE_CURVE('',#131,#132,#57,.T.);
#160=EDGE_CURVE('',#132,#133,#72,.T.);
#161=EDGE_CURVE('',#133,#134,#58,.T.);
#162=EDGE_CURVE('',#134,#135,#73,.T.);
#163=EDGE_CURVE('',#135,#136,#59,.T.);
#164=EDGE_CURVE('',#136,#137,#74,.T.);
#165=EDGE_CURVE('',#137,#124,#60,.T.);
#166=EDGE_CURVE('',#138,#139,#61,.T.);
#167=EDGE_CURVE('',#138,#124,#75,.T.);
#168=EDGE_CURVE('',#139,#137,#76,.T.);
#169=EDGE_CURVE('',#140,#139,#77,.T.);
#170=EDGE_CURVE('',#140,#136,#78,.T.);
#171=EDGE_CURVE('',#141,#140,#62,.T.);
#172=EDGE_CURVE('',#141,#135,#79,.T.);
#173=EDGE_CURVE('',#142,#141,#80,.T.);
#174=EDGE_CURVE('',#142,#134,#81,.T.);
#175=EDGE_CURVE('',#143,#142,#63,.T.);
#176=EDGE_CURVE('',#143,#133,#82,.T.);
#177=EDGE_CURVE('',#144,#143,#83,.T.);
#178=EDGE_CURVE('',#144,#132,#84,.T.);
#179=EDGE_CURVE('',#145,#144,#64,.T.);
#180=EDGE_CURVE('',#145,#131,#85,.T.);
#181=EDGE_CURVE('',#146,#145,#86,.T.);
#182=EDGE_CURVE('',#146,#130,#87,.T.);
#183=EDGE_CURVE('',#146,#147,#65,.T.);
#184=EDGE_CURVE('',#147,#129,#88,.T.);
#185=EDGE_CURVE('',#148,#147,#89,.T.);
#186=EDGE_CURVE('',#148,#128,#90,.T.);
#187=EDGE_CURVE('',#149,#148,#66,.T.);
#188=EDGE_CURVE('',#149,#127,#91,.T.);
#189=EDGE_CURVE('',#150,#149,#92,.T.);
#190=EDGE_CURVE('',#150,#126,#93,.T.);
#191=EDGE_CURVE('',#151,#150,#67,.T.);
#192=EDGE_CURVE('',#151,#125,#94,.T.);
#193=EDGE_CURVE('',#138,#151,#95,.T.);
#194=ORIENTED_EDGE('',*,*,#152,.T.);
#195=ORIENTED_EDGE('',*,*,#153,.T.);
#196=ORIENTED_EDGE('',*,*,#154,.T.);
#197=ORIENTED_EDGE('',*,*,#155,.T.);
#198=ORIENTED_EDGE('',*,*,#156,.T.);
#199=ORIENTED_EDGE('',*,*,#157,.T.);
#200=ORIENTED_EDGE('',*,*,#158,.T.);
#201=ORIENTED_EDGE('',*,*,#159,.T.);
#202=ORIENTED_EDGE('',*,*,#160,.T.);
#203=ORIENTED_EDGE('',*,*,#161,.T.);
#204=ORIENTED_EDGE('',*,*,#162,.T.);
#205=ORIENTED_EDGE('',*,*,#163,.T.);
#206=ORIENTED_EDGE('',*,*,#164,.T.);
#207=ORIENTED_EDGE('',*,*,#165,.T.);
#208=ORIENTED_EDGE('',*,*,#166,.F.);
#209=ORIENTED_EDGE('',*,*,#167,.T.);
#210=ORIENTED_EDGE('',*,*,#165,.F.);
#211=ORIENTED_EDGE('',*,*,#168,.F.);
#212=ORIENTED_EDGE('',*,*,#169,.T.);
#213=ORIENTED_EDGE('',*,*,#168,.T.);
#214=ORIENTED_EDGE('',*,*,#164,.F.);
#215=ORIENTED_EDGE('',*,*,#170,.F.);
#216=ORIENTED_EDGE('',*,*,#171,.T.);
#217=ORIENTED_EDGE('',*,*,#170,.T.);
#218=ORIENTED_EDGE('',*,*,#163,.F.);
#219=ORIENTED_EDGE('',*,*,#172,.F.);
#220=ORIENTED_EDGE('',*,*,#173,.T.);
#221=ORIENTED_EDGE('',*,*,#172,.T.);
#222=ORIENTED_EDGE('',*,*,#162,.F.);
#223=ORIENTED_EDGE('',*,*,#174,.F.);
#224=ORIENTED_EDGE('',*,*,#175,.T.);
#225=ORIENTED_EDGE('',*,*,#174,.T.);
#226=ORIENTED_EDGE('',*,*,#161,.F.);
#227=ORIENTED_EDGE('',*,*,#176,.F.);
#228=ORIENTED_EDGE('',*,*,#177,.T.);
#229=ORIENTED_EDGE('',*,*,#176,.T.);
#230=ORIENTED_EDGE('',*,*,#160,.F.);
#231=ORIENTED_EDGE('',*,*,#178,.F.);
#232=ORIENTED_EDGE('',*,*,#179,.T.);
#233=ORIENTED_EDGE('',*,*,#178,.T.);
#234=ORIENTED_EDGE('',*,*,#159,.F.);
#235=ORIENTED_EDGE('',*,*,#180,.F.);
#236=ORIENTED_EDGE('',*,*,#181,.T.);
#237=ORIENTED_EDGE('',*,*,#180,.T.);
#238=ORIENTED_EDGE('',*,*,#158,.F.);
#239=ORIENTED_EDGE('',*,*,#182,.F.);
#240=ORIENTED_EDGE('',*,*,#183,.F.);
#241=ORIENTED_EDGE('',*,*,#182,.T.);
#242=ORIENTED_EDGE('',*,*,#157,.F.);
#243=ORIENTED_EDGE('',*,*,#184,.F.);
#244=ORIENTED_EDGE('',*,*,#185,.T.);
#245=ORIENTED_EDGE('',*,*,#184,.T.);
#246=ORIENTED_EDGE('',*,*,#156,.F.);
#247=ORIENTED_EDGE('',*,*,#186,.F.);
#248=ORIENTED_EDGE('',*,*,#187,.T.);
#249=ORIENTED_EDGE('',*,*,#186,.T.);
#250=ORIENTED_EDGE('',*,*,#155,.F.);
#251=ORIENTED_EDGE('',*,*,#188,.F.);
#252=ORIENTED_EDGE('',*,*,#189,.T.);
#253=ORIENTED_EDGE('',*,*,#188,.T.);
#254=ORIENTED_EDGE('',*,*,#154,.F.);
#255=ORIENTED_EDGE('',*,*,#190,.F.);
#256=ORIENTED_EDGE('',*,*,#191,.T.);
#257=ORIENTED_EDGE('',*,*,#190,.T.);
#258=ORIENTED_EDGE('',*,*,#153,.F.);
#259=ORIENTED_EDGE('',*,*,#192,.F.);
#260=ORIENTED_EDGE('',*,*,#193,.T.);
#261=ORIENTED_EDGE('',*,*,#192,.T.);
#262=ORIENTED_EDGE('',*,*,#152,.F.);
#263=ORIENTED_EDGE('',*,*,#167,.F.);
#264=ORIENTED_EDGE('',*,*,#193,.F.);
#265=ORIENTED_EDGE('',*,*,#166,.T.);
#266=ORIENTED_EDGE('',*,*,#169,.F.);
#267=ORIENTED_EDGE('',*,*,#171,.F.);
#268=ORIENTED_EDGE('',*,*,#173,.F.);
#269=ORIENTED_EDGE('',*,*,#175,.F.);
#270=ORIENTED_EDGE('',*,*,#177,.F.);
#271=ORIENTED_EDGE('',*,*,#179,.F.);
#272=ORIENTED_EDGE('',*,*,#181,.F.);
#273=ORIENTED_EDGE('',*,*,#183,.T.);
#274=ORIENTED_EDGE('',*,*,#185,.F.);
#275=ORIENTED_EDGE('',*,*,#187,.F.);
#276=ORIENTED_EDGE('',*,*,#189,.F.);
#277=ORIENTED_EDGE('',*,*,#191,.F.);
#278=PLANE('',#317);
#279=PLANE('',#327);
#280=PLANE('',#330);
#281=PLANE('',#333);
#282=PLANE('',#336);
#283=PLANE('',#339);
#284=PLANE('',#342);
#285=PLANE('',#345);
#286=PLANE('',#346);
#287=ADVANCED_FACE('',(#22),#278,.T.);
#288=ADVANCED_FACE('',(#23),#15,.F.);
#289=ADVANCED_FACE('',(#24),#279,.T.);
#290=ADVANCED_FACE('',(#25),#16,.T.);
#291=ADVANCED_FACE('',(#26),#280,.T.);
#292=ADVANCED_FACE('',(#27),#17,.T.);
#293=ADVANCED_FACE('',(#28),#281,.T.);
#294=ADVANCED_FACE('',(#29),#18,.T.);
#295=ADVANCED_FACE('',(#30),#282,.T.);
#296=ADVANCED_FACE('',(#31),#19,.F.);
#297=ADVANCED_FACE('',(#32),#283,.T.);
#298=ADVANCED_FACE('',(#33),#20,.T.);
#299=ADVANCED_FACE('',(#34),#284,.T.);
#300=ADVANCED_FACE('',(#35),#21,.T.);
#301=ADVANCED_FACE('',(#36),#285,.T.);
#302=ADVANCED_FACE('',(#37),#286,.F.);
#303=CLOSED_SHELL('',(#287,#288,#289,#290,#291,#292,#293,#294,#295,#296,
#297,#298,#299,#300,#301,#302));
#304=DERIVED_UNIT_ELEMENT(#306,1.);
#305=DERIVED_UNIT_ELEMENT(#529,3.);
#306=(
MASS_UNIT()
NAMED_UNIT(*)
SI_UNIT(.KILO.,.GRAM.)
);
#307=DERIVED_UNIT((#304,#305));
#308=MEASURE_REPRESENTATION_ITEM('density measure',
POSITIVE_RATIO_MEASURE(7850.),#307);
#309=PROPERTY_DEFINITION_REPRESENTATION(#314,#311);
#310=PROPERTY_DEFINITION_REPRESENTATION(#315,#312);
#311=REPRESENTATION('material name',(#313),#526);
#312=REPRESENTATION('density',(#308),#526);
#313=DESCRIPTIVE_REPRESENTATION_ITEM('Steel','Steel');
#314=PROPERTY_DEFINITION('material property','material name',#536);
#315=PROPERTY_DEFINITION('material property','density of part',#536);
#316=AXIS2_PLACEMENT_3D('placement',#437,#347,#348);
#317=AXIS2_PLACEMENT_3D('',#438,#349,#350);
#318=AXIS2_PLACEMENT_3D('',#443,#352,#353);
#319=AXIS2_PLACEMENT_3D('',#447,#355,#356);
#320=AXIS2_PLACEMENT_3D('',#451,#358,#359);
#321=AXIS2_PLACEMENT_3D('',#455,#361,#362);
#322=AXIS2_PLACEMENT_3D('',#459,#364,#365);
#323=AXIS2_PLACEMENT_3D('',#463,#367,#368);
#324=AXIS2_PLACEMENT_3D('',#466,#370,#371);
#325=AXIS2_PLACEMENT_3D('',#467,#372,#373);
#326=AXIS2_PLACEMENT_3D('',#470,#374,#375);
#327=AXIS2_PLACEMENT_3D('',#473,#378,#379);
#328=AXIS2_PLACEMENT_3D('',#477,#382,#383);
#329=AXIS2_PLACEMENT_3D('',#479,#384,#385);
#330=AXIS2_PLACEMENT_3D('',#481,#387,#388);
#331=AXIS2_PLACEMENT_3D('',#485,#391,#392);
#332=AXIS2_PLACEMENT_3D('',#487,#393,#394);
#333=AXIS2_PLACEMENT_3D('',#489,#396,#397);
#334=AXIS2_PLACEMENT_3D('',#493,#400,#401);
#335=AXIS2_PLACEMENT_3D('',#495,#402,#403);
#336=AXIS2_PLACEMENT_3D('',#497,#405,#406);
#337=AXIS2_PLACEMENT_3D('',#501,#409,#410);
#338=AXIS2_PLACEMENT_3D('',#503,#411,#412);
#339=AXIS2_PLACEMENT_3D('',#505,#414,#415);
#340=AXIS2_PLACEMENT_3D('',#509,#418,#419);
#341=AXIS2_PLACEMENT_3D('',#511,#420,#421);
#342=AXIS2_PLACEMENT_3D('',#513,#423,#424);
#343=AXIS2_PLACEMENT_3D('',#517,#427,#428);
#344=AXIS2_PLACEMENT_3D('',#519,#429,#430);
#345=AXIS2_PLACEMENT_3D('',#521,#432,#433);
#346=AXIS2_PLACEMENT_3D('',#523,#435,#436);
#347=DIRECTION('axis',(0.,0.,1.));
#348=DIRECTION('refdir',(1.,0.,0.));
#349=DIRECTION('center_axis',(0.,0.,1.));
#350=DIRECTION('ref_axis',(-1.,-1.22464679914735E-16,0.));
#351=DIRECTION('',(-0.999999999964684,-8.40433449517548E-6,0.));
#352=DIRECTION('center_axis',(0.,0.,1.));
#353=DIRECTION('ref_axis',(-1.22464679914735E-16,1.,0.));
#354=DIRECTION('',(0.0871557671512351,-0.996194695956709,0.));
#355=DIRECTION('center_axis',(0.,0.,1.));
#356=DIRECTION('ref_axis',(-0.996194695957337,-0.0871557671440543,0.));
#357=DIRECTION('',(-0.0871557454402377,0.996194697856175,0.));
#358=DIRECTION('center_axis',(0.,0.,-1.));
#359=DIRECTION('ref_axis',(0.107188405514856,0.994238726726727,0.));
#360=DIRECTION('',(0.999999999999998,6.39007507144268E-8,0.));
#361=DIRECTION('center_axis',(0.,0.,1.));
#362=DIRECTION('ref_axis',(-0.999999999999998,-6.15068619483988E-8,0.));
#363=DIRECTION('',(0.999999996552739,8.30332546998348E-5,0.));
#364=DIRECTION('center_axis',(0.,0.,1.));
#365=DIRECTION('ref_axis',(0.0260460149005358,-0.999660745006925,0.));
#366=DIRECTION('',(-0.948185287673784,0.31771789411203,0.));
#367=DIRECTION('center_axis',(0.,0.,1.));
#368=DIRECTION('ref_axis',(0.320336824344004,0.947303709994424,0.));
#369=DIRECTION('',(0.948185303348091,-0.317717847334218,0.));
#370=DIRECTION('center_axis',(0.,0.,-1.));
#371=DIRECTION('ref_axis',(0.025741330811855,-0.999668637043313,0.));
#372=DIRECTION('center_axis',(0.,0.,1.));
#373=DIRECTION('ref_axis',(0.025741330811855,-0.999668637043313,0.));
#374=DIRECTION('center_axis',(0.,0.,1.));
#375=DIRECTION('ref_axis',(0.025741330811855,-0.999668637043313,0.));
#376=DIRECTION('',(0.,0.,1.));
#377=DIRECTION('',(0.,0.,1.));
#378=DIRECTION('center_axis',(-0.317717847334218,-0.948185303348091,0.));
#379=DIRECTION('ref_axis',(0.948185303348091,-0.317717847334218,0.));
#380=DIRECTION('',(0.948185303348091,-0.317717847334218,0.));
#381=DIRECTION('',(0.,0.,1.));
#382=DIRECTION('center_axis',(0.,0.,1.));
#383=DIRECTION('ref_axis',(-0.948185303345416,0.317717847342201,0.));
#384=DIRECTION('center_axis',(0.,0.,1.));
#385=DIRECTION('ref_axis',(0.320336824344004,0.947303709994424,0.));
#386=DIRECTION('',(0.,0.,1.));
#387=DIRECTION('center_axis',(0.31771789411203,0.948185287673784,0.));
#388=DIRECTION('ref_axis',(-0.948185287673784,0.31771789411203,0.));
#389=DIRECTION('',(-0.948185287673784,0.31771789411203,0.));
#390=DIRECTION('',(0.,0.,1.));
#391=DIRECTION('center_axis',(0.,0.,1.));
#392=DIRECTION('ref_axis',(0.0260460149005358,-0.999660745006925,0.));
#393=DIRECTION('center_axis',(0.,0.,1.));
#394=DIRECTION('ref_axis',(0.0260460149005358,-0.999660745006925,0.));
#395=DIRECTION('',(0.,0.,1.));
#396=DIRECTION('center_axis',(8.30332546998348E-5,-0.999999996552739,0.));
#397=DIRECTION('ref_axis',(0.999999996552739,8.30332546998348E-5,0.));
#398=DIRECTION('',(0.999999996552739,8.30332546998348E-5,0.));
#399=DIRECTION('',(0.,0.,1.));
#400=DIRECTION('center_axis',(0.,0.,1.));
#401=DIRECTION('ref_axis',(-0.999999999999998,-6.15068619483988E-8,0.));
#402=DIRECTION('center_axis',(0.,0.,1.));
#403=DIRECTION('ref_axis',(-0.999999999999998,-6.15068619483988E-8,0.));
#404=DIRECTION('',(0.,0.,1.));
#405=DIRECTION('center_axis',(6.39007507144268E-8,-0.999999999999998,0.));
#406=DIRECTION('ref_axis',(0.999999999999998,6.39007507144268E-8,0.));
#407=DIRECTION('',(0.999999999999998,6.39007507144268E-8,0.));
#408=DIRECTION('',(0.,0.,1.));
#409=DIRECTION('center_axis',(0.,0.,1.));
#410=DIRECTION('ref_axis',(0.107188405514856,0.994238726726727,0.));
#411=DIRECTION('center_axis',(0.,0.,1.));
#412=DIRECTION('ref_axis',(0.107188405514856,0.994238726726727,0.));
#413=DIRECTION('',(0.,0.,1.));
#414=DIRECTION('center_axis',(0.996194697856175,0.0871557454402377,0.));
#415=DIRECTION('ref_axis',(-0.0871557454402377,0.996194697856175,0.));
#416=DIRECTION('',(-0.0871557454402377,0.996194697856175,0.));
#417=DIRECTION('',(0.,0.,1.));
#418=DIRECTION('center_axis',(0.,0.,1.));
#419=DIRECTION('ref_axis',(-0.996194695957337,-0.0871557671440543,0.));
#420=DIRECTION('center_axis',(0.,0.,1.));
#421=DIRECTION('ref_axis',(-0.996194695957337,-0.0871557671440543,0.));
#422=DIRECTION('',(0.,0.,1.));
#423=DIRECTION('center_axis',(-0.996194695956709,-0.0871557671512351,0.));
#424=DIRECTION('ref_axis',(0.0871557671512351,-0.996194695956709,0.));
#425=DIRECTION('',(0.0871557671512351,-0.996194695956709,0.));
#426=DIRECTION('',(0.,0.,1.));
#427=DIRECTION('center_axis',(0.,0.,1.));
#428=DIRECTION('ref_axis',(-1.22464679914735E-16,1.,0.));
#429=DIRECTION('center_axis',(0.,0.,1.));
#430=DIRECTION('ref_axis',(-1.22464679914735E-16,1.,0.));
#431=DIRECTION('',(0.,0.,1.));
#432=DIRECTION('center_axis',(-8.40433449517548E-6,0.999999999964684,0.));
#433=DIRECTION('ref_axis',(-0.999999999964684,-8.40433449517548E-6,0.));
#434=DIRECTION('',(-0.999999999964684,-8.40433449517548E-6,0.));
#435=DIRECTION('center_axis',(0.,0.,1.));
#436=DIRECTION('ref_axis',(-1.,-1.22464679914735E-16,0.));
#437=CARTESIAN_POINT('',(0.,0.,0.));
#438=CARTESIAN_POINT('Origin',(24.2840310197793,9.04401144701812,2000.));
#439=CARTESIAN_POINT('',(13.4495850415001,6.14214246598876,2000.));
#440=CARTESIAN_POINT('',(1.64186263746359,6.14204322994004,2000.));
#441=CARTESIAN_POINT('',(13.4495850415001,6.14214246598876,2000.));
#442=CARTESIAN_POINT('',(0.147570601461098,4.51130965444375,2000.));
#443=CARTESIAN_POINT('Origin',(1.64186263746359,4.64204324324004,2000.));
#444=CARTESIAN_POINT('',(0.470601647566724,0.819048943785639,2000.));
#445=CARTESIAN_POINT('',(0.147570601461099,4.51130965444375,2000.));
#446=CARTESIAN_POINT('',(1.9648936934508,0.949782572235032,2000.));
#447=CARTESIAN_POINT('Origin',(1.21774766953472,0.884415769143678,2000.));
#448=CARTESIAN_POINT('',(1.68527256227744,4.14586662700862,2000.));
#449=CARTESIAN_POINT('',(1.96489369292699,0.949782578222198,2000.));
#450=CARTESIAN_POINT('',(2.17092846209567,4.64206838563398,2000.));
#451=CARTESIAN_POINT('Origin',(2.12355663907715,4.20266544112304,2000.));
#452=CARTESIAN_POINT('',(6.28186263746361,4.64206864832576,2000.));
#453=CARTESIAN_POINT('',(2.17092846209567,4.64206838563398,2000.));
#454=CARTESIAN_POINT('',(8.28186263746357,4.64206870983262,2000.));
#455=CARTESIAN_POINT('Origin',(7.28186263746359,4.64206870983262,2000.));
#456=CARTESIAN_POINT('',(13.475326356033,4.64249994002982,2000.));
#457=CARTESIAN_POINT('',(8.28186263746357,4.64206870983262,2000.));
#458=CARTESIAN_POINT('',(14.0176695591934,8.14741046423139,2000.));
#459=CARTESIAN_POINT('Origin',(13.4283838559493,6.44417957452915,2000.));
#460=CARTESIAN_POINT('',(2.52994271266768,11.9967175872798,2000.));
#461=CARTESIAN_POINT('',(14.0176695591934,8.14741046423139,2000.));
#462=CARTESIAN_POINT('',(2.05338224600858,10.5744882903687,2000.));
#463=CARTESIAN_POINT('Origin',(2.28969739649958,11.2862613986075,2000.));
#464=CARTESIAN_POINT('',(13.5371781172641,6.72649898853344,2000.));
#465=CARTESIAN_POINT('',(2.05338224600858,10.5744882903687,2000.));
#466=CARTESIAN_POINT('Origin',(13.4418626374636,6.44204324324004,2000.));
#467=CARTESIAN_POINT('Origin',(13.4418626374636,6.44204324324004,0.));
#468=CARTESIAN_POINT('',(13.4495850415001,6.14214246598876,0.));
#469=CARTESIAN_POINT('',(13.5371781172641,6.72649898853344,0.));
#470=CARTESIAN_POINT('Origin',(13.4418626374636,6.44204324324004,0.));
#471=CARTESIAN_POINT('',(13.4495850415001,6.14214246598876,0.));
#472=CARTESIAN_POINT('',(13.5371781172641,6.72649898853344,0.));
#473=CARTESIAN_POINT('Origin',(2.05338224600858,10.5744882903687,0.));
#474=CARTESIAN_POINT('',(2.05338224600858,10.5744882903687,0.));
#475=CARTESIAN_POINT('',(2.05338224600858,10.5744882903687,0.));
#476=CARTESIAN_POINT('',(2.05338224600858,10.5744882903687,0.));
#477=CARTESIAN_POINT('Origin',(2.28969739649958,11.2862613986075,0.));
#478=CARTESIAN_POINT('',(2.52994271266768,11.9967175872798,0.));
#479=CARTESIAN_POINT('Origin',(2.28969739649958,11.2862613986075,0.));
#480=CARTESIAN_POINT('',(2.52994271266768,11.9967175872798,0.));
#481=CARTESIAN_POINT('Origin',(14.0176695591934,8.14741046423139,0.));
#482=CARTESIAN_POINT('',(14.0176695591934,8.14741046423139,0.));
#483=CARTESIAN_POINT('',(14.0176695591934,8.14741046423139,0.));
#484=CARTESIAN_POINT('',(14.0176695591934,8.14741046423139,0.));
#485=CARTESIAN_POINT('Origin',(13.4283838559493,6.44417957452915,0.));
#486=CARTESIAN_POINT('',(13.475326356033,4.64249994002982,0.));
#487=CARTESIAN_POINT('Origin',(13.4283838559493,6.44417957452915,0.));
#488=CARTESIAN_POINT('',(13.475326356033,4.64249994002982,0.));
#489=CARTESIAN_POINT('Origin',(8.28186263746357,4.64206870983262,0.));
#490=CARTESIAN_POINT('',(8.28186263746357,4.64206870983262,0.));
#491=CARTESIAN_POINT('',(8.28186263746357,4.64206870983262,0.));
#492=CARTESIAN_POINT('',(8.28186263746357,4.64206870983262,0.));
#493=CARTESIAN_POINT('Origin',(7.28186263746359,4.64206870983262,0.));
#494=CARTESIAN_POINT('',(6.28186263746361,4.64206864832576,0.));
#495=CARTESIAN_POINT('Origin',(7.28186263746359,4.64206870983262,0.));
#496=CARTESIAN_POINT('',(6.28186263746361,4.64206864832576,0.));
#497=CARTESIAN_POINT('Origin',(2.17092846209567,4.64206838563398,0.));
#498=CARTESIAN_POINT('',(2.17092846209567,4.64206838563398,0.));
#499=CARTESIAN_POINT('',(2.17092846209567,4.64206838563398,0.));
#500=CARTESIAN_POINT('',(2.17092846209567,4.64206838563398,0.));
#501=CARTESIAN_POINT('Origin',(2.12355663907715,4.20266544112304,0.));
#502=CARTESIAN_POINT('',(1.68527256227744,4.14586662700862,0.));
#503=CARTESIAN_POINT('Origin',(2.12355663907715,4.20266544112304,0.));
#504=CARTESIAN_POINT('',(1.68527256227744,4.14586662700862,0.));
#505=CARTESIAN_POINT('Origin',(1.96489369292699,0.949782578222198,0.));
#506=CARTESIAN_POINT('',(1.96489369345081,0.949782572235032,0.));
#507=CARTESIAN_POINT('',(1.96489369292699,0.949782578222198,0.));
#508=CARTESIAN_POINT('',(1.96489369345081,0.949782572235032,0.));
#509=CARTESIAN_POINT('Origin',(1.21774766953472,0.884415769143678,0.));
#510=CARTESIAN_POINT('',(0.470601647566725,0.819048943785639,0.));
#511=CARTESIAN_POINT('Origin',(1.21774766953472,0.884415769143678,0.));
#512=CARTESIAN_POINT('',(0.470601647566725,0.819048943785639,0.));
#513=CARTESIAN_POINT('Origin',(0.147570601461099,4.51130965444375,0.));
#514=CARTESIAN_POINT('',(0.147570601461099,4.51130965444375,0.));
#515=CARTESIAN_POINT('',(0.147570601461099,4.51130965444375,0.));
#516=CARTESIAN_POINT('',(0.147570601461099,4.51130965444375,0.));
#517=CARTESIAN_POINT('Origin',(1.64186263746359,4.64204324324004,0.));
#518=CARTESIAN_POINT('',(1.64186263746359,6.14204322994004,0.));
#519=CARTESIAN_POINT('Origin',(1.64186263746359,4.64204324324004,0.));
#520=CARTESIAN_POINT('',(1.64186263746359,6.14204322994004,0.));
#521=CARTESIAN_POINT('Origin',(13.4495850415001,6.14214246598876,0.));
#522=CARTESIAN_POINT('',(13.4495850415001,6.14214246598876,0.));
#523=CARTESIAN_POINT('Origin',(24.2840310197793,9.04401144701812,0.));
#524=UNCERTAINTY_MEASURE_WITH_UNIT(LENGTH_MEASURE(0.01),#528,
'DISTANCE_ACCURACY_VALUE',
'Maximum model space distance between geometric entities at asserted c
onnectivities');
#525=UNCERTAINTY_MEASURE_WITH_UNIT(LENGTH_MEASURE(0.01),#528,
'DISTANCE_ACCURACY_VALUE',
'Maximum model space distance between geometric entities at asserted c
onnectivities');
#526=(
GEOMETRIC_REPRESENTATION_CONTEXT(3)
GLOBAL_UNCERTAINTY_ASSIGNED_CONTEXT((#524))
GLOBAL_UNIT_ASSIGNED_CONTEXT((#528,#530,#531))
REPRESENTATION_CONTEXT('','3D')
);
#527=(
GEOMETRIC_REPRESENTATION_CONTEXT(3)
GLOBAL_UNCERTAINTY_ASSIGNED_CONTEXT((#525))
GLOBAL_UNIT_ASSIGNED_CONTEXT((#528,#530,#531))
REPRESENTATION_CONTEXT('','3D')
);
#528=(
LENGTH_UNIT()
NAMED_UNIT(*)
SI_UNIT(.MILLI.,.METRE.)
);
#529=(
LENGTH_UNIT()
NAMED_UNIT(*)
SI_UNIT($,.METRE.)
);
#530=(
NAMED_UNIT(*)
PLANE_ANGLE_UNIT()
SI_UNIT($,.RADIAN.)
);
#531=(
NAMED_UNIT(*)
SI_UNIT($,.STERADIAN.)
SOLID_ANGLE_UNIT()
);
#532=SHAPE_DEFINITION_REPRESENTATION(#533,#534);
#533=PRODUCT_DEFINITION_SHAPE('',$,#536);
#534=SHAPE_REPRESENTATION('',(#316),#526);
#535=PRODUCT_DEFINITION_CONTEXT('part definition',#540,'design');
#536=PRODUCT_DEFINITION('61-121-0','61-121-0 v2',#537,#535);
#537=PRODUCT_DEFINITION_FORMATION('',$,#542);
#538=PRODUCT_RELATED_PRODUCT_CATEGORY('61-121-0 v2','61-121-0 v2',(#542));
#539=APPLICATION_PROTOCOL_DEFINITION('international standard',
'automotive_design',2009,#540);
#540=APPLICATION_CONTEXT(
'Core Data for Automotive Mechanical Design Process');
#541=PRODUCT_CONTEXT('part definition',#540,'mechanical');
#542=PRODUCT('61-121-0','61-121-0 v2',$,(#541));
#543=PRESENTATION_STYLE_ASSIGNMENT((#544));
#544=SURFACE_STYLE_USAGE(.BOTH.,#545);
#545=SURFACE_SIDE_STYLE('',(#546));
#546=SURFACE_STYLE_FILL_AREA(#547);
#547=FILL_AREA_STYLE('Steel - Satin',(#548));
#548=FILL_AREA_STYLE_COLOUR('Steel - Satin',#549);
#549=COLOUR_RGB('Steel - Satin',0.627450980392157,0.627450980392157,0.627450980392157);
ENDSEC;
END-ISO-10303-21;
